ISO-10303-21;
HEADER;
FILE_DESCRIPTION (( 'STEP AP203' ),
    '1' );
FILE_NAME ('Entry thread seal - Metric and NPT.63 Metric and 2 NPT.STEP',
    '2013-02-07T10:14:35',
    ( '' ),
    ( '' ),
    'SwSTEP 2.0',
    'SolidWorks 2012',
    '' );
FILE_SCHEMA (( 'CONFIG_CONTROL_DESIGN' ));
ENDSEC;

DATA;
#1 = DESIGN_CONTEXT ( 'detailed design', #188, 'design' ) ;
#2 = PRODUCT_DEFINITION_SHAPE ( 'NONE', 'NONE',  #231 ) ;
#3 = UNCERTAINTY_MEASURE_WITH_UNIT (LENGTH_MEASURE( 1.000000000000000100E-005 ), #180, 'distance_accuracy_value', 'NONE');
#4 = MANIFOLD_SOLID_BREP ( 'Revolve1', #10 ) ;
#5 = ADVANCED_BREP_SHAPE_REPRESENTATION ( 'Entry thread seal - Metric and NPT.63 Metric and 2 NPT', ( #4, #229 ), #228 ) ;
#6 = VERTEX_POINT ( 'NONE', #175 ) ;
#7 = VERTEX_POINT ( 'NONE', #174 ) ;
#8 = VERTEX_POINT ( 'NONE', #112 ) ;
#9 = VERTEX_POINT ( 'NONE', #116 ) ;
#10 = CLOSED_SHELL ( 'NONE', ( #196, #199, #198, #197, #201, #200 ) ) ;
#11 = FACE_OUTER_BOUND ( 'NONE', #16, .T. ) ;
#12 = VERTEX_POINT ( 'NONE', #117 ) ;
#13 = VERTEX_POINT ( 'NONE', #113 ) ;
#14 = VERTEX_POINT ( 'NONE', #115 ) ;
#15 = VERTEX_POINT ( 'NONE', #114 ) ;
#16 = EDGE_LOOP ( 'NONE', ( #28, #29, #30, #31 ) ) ;
#17 = EDGE_LOOP ( 'NONE', ( #38, #39 ) ) ;
#18 = EDGE_LOOP ( 'NONE', ( #40, #41, #42, #43 ) ) ;
#19 = EDGE_LOOP ( 'NONE', ( #25, #24, #26, #27 ) ) ;
#20 = EDGE_LOOP ( 'NONE', ( #46, #47 ) ) ;
#21 = EDGE_LOOP ( 'NONE', ( #32, #33, #34, #35 ) ) ;
#22 = EDGE_LOOP ( 'NONE', ( #44, #45 ) ) ;
#23 = EDGE_LOOP ( 'NONE', ( #36, #37 ) ) ;
#24 = ORIENTED_EDGE ( 'NONE', *, *, #203, .T. ) ;
#25 = ORIENTED_EDGE ( 'NONE', *, *, #206, .F. ) ;
#26 = ORIENTED_EDGE ( 'NONE', *, *, #204, .T. ) ;
#27 = ORIENTED_EDGE ( 'NONE', *, *, #205, .F. ) ;
#28 = ORIENTED_EDGE ( 'NONE', *, *, #213, .T. ) ;
#29 = ORIENTED_EDGE ( 'NONE', *, *, #202, .T. ) ;
#30 = ORIENTED_EDGE ( 'NONE', *, *, #207, .F. ) ;
#31 = ORIENTED_EDGE ( 'NONE', *, *, #208, .F. ) ;
#32 = ORIENTED_EDGE ( 'NONE', *, *, #202, .F. ) ;
#33 = ORIENTED_EDGE ( 'NONE', *, *, #209, .T. ) ;
#34 = ORIENTED_EDGE ( 'NONE', *, *, #208, .T. ) ;
#35 = ORIENTED_EDGE ( 'NONE', *, *, #210, .F. ) ;
#36 = ORIENTED_EDGE ( 'NONE', *, *, #211, .F. ) ;
#37 = ORIENTED_EDGE ( 'NONE', *, *, #204, .F. ) ;
#38 = ORIENTED_EDGE ( 'NONE', *, *, #207, .T. ) ;
#39 = ORIENTED_EDGE ( 'NONE', *, *, #210, .T. ) ;
#40 = ORIENTED_EDGE ( 'NONE', *, *, #203, .F. ) ;
#41 = ORIENTED_EDGE ( 'NONE', *, *, #212, .F. ) ;
#42 = ORIENTED_EDGE ( 'NONE', *, *, #205, .T. ) ;
#43 = ORIENTED_EDGE ( 'NONE', *, *, #211, .T. ) ;
#44 = ORIENTED_EDGE ( 'NONE', *, *, #213, .F. ) ;
#45 = ORIENTED_EDGE ( 'NONE', *, *, #209, .F. ) ;
#46 = ORIENTED_EDGE ( 'NONE', *, *, #212, .T. ) ;
#47 = ORIENTED_EDGE ( 'NONE', *, *, #206, .T. ) ;
#48 = FACE_OUTER_BOUND ( 'NONE', #17, .T. ) ;
#49 = CYLINDRICAL_SURFACE ( 'NONE', #214, 31.60999999999999900 ) ;
#50 = FACE_OUTER_BOUND ( 'NONE', #22, .T. ) ;
#51 = FACE_OUTER_BOUND ( 'NONE', #18, .T. ) ;
#52 = FACE_BOUND ( 'NONE', #23, .T. ) ;
#53 = FACE_OUTER_BOUND ( 'NONE', #21, .T. ) ;
#54 = FACE_OUTER_BOUND ( 'NONE', #19, .T. ) ;
#55 = VECTOR ( 'NONE', #136, 1000.000000000000000 ) ;
#56 = CYLINDRICAL_SURFACE ( 'NONE', #217, 38.25000000000000000 ) ;
#57 = LINE ( 'NONE', #135, #55 ) ;
#58 = CYLINDRICAL_SURFACE ( 'NONE', #218, 38.25000000000000000 ) ;
#59 = FACE_BOUND ( 'NONE', #20, .T. ) ;
#60 = LINE ( 'NONE', #137, #64 ) ;
#61 = CIRCLE ( 'NONE', #220, 31.60999999999999900 ) ;
#62 = CYLINDRICAL_SURFACE ( 'NONE', #221, 31.60999999999999900 ) ;
#63 = CIRCLE ( 'NONE', #216, 31.60999999999999900 ) ;
#64 = VECTOR ( 'NONE', #125, 1000.000000000000000 ) ;
#65 = LINE ( 'NONE', #124, #67 ) ;
#66 = CIRCLE ( 'NONE', #222, 38.25000000000000000 ) ;
#67 = VECTOR ( 'NONE', #134, 1000.000000000000000 ) ;
#68 = LINE ( 'NONE', #150, #70 ) ;
#69 = CIRCLE ( 'NONE', #223, 38.25000000000000000 ) ;
#70 = VECTOR ( 'NONE', #133, 1000.000000000000000 ) ;
#71 = CIRCLE ( 'NONE', #224, 38.25000000000000000 ) ;
#72 = CIRCLE ( 'NONE', #225, 31.60999999999999900 ) ;
#73 = CIRCLE ( 'NONE', #226, 31.60999999999999900 ) ;
#74 = CIRCLE ( 'NONE', #227, 38.25000000000000000 ) ;
#75 = SHAPE_DEFINITION_REPRESENTATION ( #2, #5 ) ;
#76 = ORGANIZATION ( 'UNSPECIFIED', 'UNSPECIFIED', '' ) ;
#77 = PERSON_AND_ORGANIZATION ( #249, #76 ) ;
#78 = PERSON_AND_ORGANIZATION ( #249, #76 ) ;
#79 = APPROVAL_PERSON_ORGANIZATION ( #78, #232, #191 ) ;
#80 = COORDINATED_UNIVERSAL_TIME_OFFSET ( 0, 0, .AHEAD. ) ;
#81 = LOCAL_TIME ( 10, 14, 35.00000000000000000, #80 ) ;
#82 = CALENDAR_DATE ( 2013, 7, 2 ) ;
#83 = DATE_AND_TIME ( #82, #81 ) ;
#84 = APPROVAL_DATE_TIME ( #83, #232 ) ;
#85 = PERSON_AND_ORGANIZATION ( #249, #76 ) ;
#86 = COORDINATED_UNIVERSAL_TIME_OFFSET ( 0, 0, .AHEAD. ) ;
#87 = LOCAL_TIME ( 10, 14, 35.00000000000000000, #86 ) ;
#88 = CALENDAR_DATE ( 2013, 7, 2 ) ;
#89 = DATE_AND_TIME ( #88, #87 ) ;
#90 = PERSON_AND_ORGANIZATION ( #249, #76 ) ;
#91 = APPROVAL_PERSON_ORGANIZATION ( #90, #237, #172 ) ;
#92 = COORDINATED_UNIVERSAL_TIME_OFFSET ( 0, 0, .AHEAD. ) ;
#93 = LOCAL_TIME ( 10, 14, 35.00000000000000000, #92 ) ;
#94 = CALENDAR_DATE ( 2013, 7, 2 ) ;
#95 = DATE_AND_TIME ( #94, #93 ) ;
#96 = APPROVAL_DATE_TIME ( #95, #237 ) ;
#97 = PERSON_AND_ORGANIZATION ( #249, #76 ) ;
#98 = PERSON_AND_ORGANIZATION ( #249, #76 ) ;
#99 = PERSON_AND_ORGANIZATION ( #249, #76 ) ;
#100 = COORDINATED_UNIVERSAL_TIME_OFFSET ( 0, 0, .AHEAD. ) ;
#101 = LOCAL_TIME ( 10, 14, 35.00000000000000000, #100 ) ;
#102 = CALENDAR_DATE ( 2013, 7, 2 ) ;
#103 = DATE_AND_TIME ( #102, #101 ) ;
#104 = PERSON_AND_ORGANIZATION ( #249, #76 ) ;
#105 = APPROVAL_PERSON_ORGANIZATION ( #104, #244, #167 ) ;
#106 = COORDINATED_UNIVERSAL_TIME_OFFSET ( 0, 0, .AHEAD. ) ;
#107 = LOCAL_TIME ( 10, 14, 35.00000000000000000, #106 ) ;
#108 = CALENDAR_DATE ( 2013, 7, 2 ) ;
#109 = DATE_AND_TIME ( #108, #107 ) ;
#110 = APPROVAL_DATE_TIME ( #109, #244 ) ;
#111 = DIRECTION ( 'NONE',  ( 0.0000000000000000000, 0.0000000000000000000, -1.000000000000000000 ) ) ;
#112 = CARTESIAN_POINT ( 'NONE',  ( -1.000000000000007800, 4.684274006738625700E-015, -38.25000000000000000 ) ) ;
#113 = CARTESIAN_POINT ( 'NONE',  ( -1.000000000000000900, 3.871108532104783600E-015, -31.60999999999999900 ) ) ;
#114 = CARTESIAN_POINT ( 'NONE',  ( 0.9999999999999940000, 0.0000000000000000000, 38.25000000000000000 ) ) ;
#115 = CARTESIAN_POINT ( 'NONE',  ( 0.9999999999999940000, 3.871108532104783600E-015, -31.60999999999999900 ) ) ;
#116 = CARTESIAN_POINT ( 'NONE',  ( -1.000000000000000900, 0.0000000000000000000, 31.60999999999999900 ) ) ;
#117 = CARTESIAN_POINT ( 'NONE',  ( 0.9999999999999940000, 0.0000000000000000000, 31.60999999999999900 ) ) ;
#118 = DIRECTION ( 'NONE',  ( 1.000000000000000000, 0.0000000000000000000, 0.0000000000000000000 ) ) ;
#119 = CARTESIAN_POINT ( 'NONE',  ( -1.000000000000004400, 38.25000000000000000, 0.0000000000000000000 ) ) ;
#120 = DIRECTION ( 'NONE',  ( 0.0000000000000000000, 0.0000000000000000000, 1.000000000000000000 ) ) ;
#121 = CARTESIAN_POINT ( 'NONE',  ( -39.90653472252495200, 0.0000000000000000000, 0.0000000000000000000 ) ) ;
#122 = DIRECTION ( 'NONE',  ( -1.000000000000000000, -0.0000000000000000000, -0.0000000000000000000 ) ) ;
#123 = DIRECTION ( 'NONE',  ( 0.0000000000000000000, 0.0000000000000000000, 1.000000000000000000 ) ) ;
#124 = CARTESIAN_POINT ( 'NONE',  ( -39.90653472252495200, 0.0000000000000000000, 31.60999999999999900 ) ) ;
#125 = DIRECTION ( 'NONE',  ( -1.000000000000000000, -0.0000000000000000000, -0.0000000000000000000 ) ) ;
#126 = PLANE ( 'NONE',  #219 ) ;
#127 = DIRECTION ( 'NONE',  ( 0.0000000000000000000, 0.0000000000000000000, 1.000000000000000000 ) ) ;
#128 = DIRECTION ( 'NONE',  ( -1.000000000000000000, 0.0000000000000000000, -0.0000000000000000000 ) ) ;
#129 = DIRECTION ( 'NONE',  ( -0.0000000000000000000, 0.0000000000000000000, 1.000000000000000000 ) ) ;
#130 = CARTESIAN_POINT ( 'NONE',  ( -1.000000000000000900, 0.0000000000000000000, 0.0000000000000000000 ) ) ;
#131 = DIRECTION ( 'NONE',  ( -1.000000000000000000, -0.0000000000000000000, -0.0000000000000000000 ) ) ;
#132 = DIRECTION ( 'NONE',  ( 0.0000000000000000000, 0.0000000000000000000, 1.000000000000000000 ) ) ;
#133 = DIRECTION ( 'NONE',  ( -1.000000000000000000, -0.0000000000000000000, -0.0000000000000000000 ) ) ;
#134 = DIRECTION ( 'NONE',  ( -1.000000000000000000, -0.0000000000000000000, -0.0000000000000000000 ) ) ;
#135 = CARTESIAN_POINT ( 'NONE',  ( -39.90653472252495200, 4.684274006738625700E-015, -38.25000000000000000 ) ) ;
#136 = DIRECTION ( 'NONE',  ( -1.000000000000000000, -0.0000000000000000000, -0.0000000000000000000 ) ) ;
#137 = CARTESIAN_POINT ( 'NONE',  ( -39.90653472252495200, 3.871108532104783600E-015, -31.60999999999999900 ) ) ;
#138 = DIRECTION ( 'NONE',  ( -1.000000000000000000, -0.0000000000000000000, -0.0000000000000000000 ) ) ;
#139 = CARTESIAN_POINT ( 'NONE',  ( 0.9999999999999956700, 31.60999999999999900, 0.0000000000000000000 ) ) ;
#140 = CARTESIAN_POINT ( 'NONE',  ( -39.90653472252495200, 0.0000000000000000000, 0.0000000000000000000 ) ) ;
#141 = DIRECTION ( 'NONE',  ( -1.000000000000000000, -0.0000000000000000000, -0.0000000000000000000 ) ) ;
#142 = CARTESIAN_POINT ( 'NONE',  ( -39.90653472252495200, 0.0000000000000000000, 0.0000000000000000000 ) ) ;
#143 = DIRECTION ( 'NONE',  ( -1.000000000000000000, -0.0000000000000000000, -0.0000000000000000000 ) ) ;
#144 = DIRECTION ( 'NONE',  ( 0.0000000000000000000, 0.0000000000000000000, 1.000000000000000000 ) ) ;
#145 = CARTESIAN_POINT ( 'NONE',  ( -1.000000000000000900, 0.0000000000000000000, 0.0000000000000000000 ) ) ;
#146 = DIRECTION ( 'NONE',  ( -1.000000000000000000, -0.0000000000000000000, -0.0000000000000000000 ) ) ;
#147 = DIRECTION ( 'NONE',  ( 0.0000000000000000000, 0.0000000000000000000, 1.000000000000000000 ) ) ;
#148 = CARTESIAN_POINT ( 'NONE',  ( 0.0000000000000000000, 0.0000000000000000000, 0.0000000000000000000 ) ) ;
#149 = DIRECTION ( 'NONE',  ( 0.0000000000000000000, 0.0000000000000000000, 1.000000000000000000 ) ) ;
#150 = CARTESIAN_POINT ( 'NONE',  ( -39.90653472252495200, 0.0000000000000000000, 38.25000000000000000 ) ) ;
#151 = CARTESIAN_POINT ( 'NONE',  ( -1.000000000000007800, 0.0000000000000000000, 0.0000000000000000000 ) ) ;
#152 = DIRECTION ( 'NONE',  ( -1.000000000000000000, -0.0000000000000000000, -0.0000000000000000000 ) ) ;
#153 = CARTESIAN_POINT ( 'NONE',  ( 0.9999999999999940000, 0.0000000000000000000, 0.0000000000000000000 ) ) ;
#154 = DIRECTION ( 'NONE',  ( -1.000000000000000000, -0.0000000000000000000, -0.0000000000000000000 ) ) ;
#155 = DIRECTION ( 'NONE',  ( 0.0000000000000000000, 0.0000000000000000000, 1.000000000000000000 ) ) ;
#156 = DIRECTION ( 'NONE',  ( 0.0000000000000000000, 0.0000000000000000000, 1.000000000000000000 ) ) ;
#157 = CARTESIAN_POINT ( 'NONE',  ( -1.000000000000007800, 0.0000000000000000000, 0.0000000000000000000 ) ) ;
#158 = DIRECTION ( 'NONE',  ( -1.000000000000000000, -0.0000000000000000000, -0.0000000000000000000 ) ) ;
#159 = DIRECTION ( 'NONE',  ( 0.0000000000000000000, 0.0000000000000000000, 1.000000000000000000 ) ) ;
#160 = PLANE ( 'NONE',  #215 ) ;
#161 = DIRECTION ( 'NONE',  ( 0.0000000000000000000, 0.0000000000000000000, 1.000000000000000000 ) ) ;
#162 = CARTESIAN_POINT ( 'NONE',  ( 0.9999999999999940000, 0.0000000000000000000, 0.0000000000000000000 ) ) ;
#163 = DIRECTION ( 'NONE',  ( -1.000000000000000000, -0.0000000000000000000, -0.0000000000000000000 ) ) ;
#164 = CARTESIAN_POINT ( 'NONE',  ( -39.90653472252495200, 0.0000000000000000000, 0.0000000000000000000 ) ) ;
#165 = DATE_TIME_ROLE ( 'classification_date' ) ;
#166 = APPROVAL_STATUS ( 'not_yet_approved' ) ;
#167 = APPROVAL_ROLE ( '' ) ;
#168 = PERSON_AND_ORGANIZATION_ROLE ( 'design_supplier' ) ;
#169 = SECURITY_CLASSIFICATION_LEVEL ( 'unclassified' ) ;
#170 = PERSON_AND_ORGANIZATION_ROLE ( 'classification_officer' ) ;
#171 = APPROVAL_STATUS ( 'not_yet_approved' ) ;
#172 = APPROVAL_ROLE ( '' ) ;
#173 = PERSON_AND_ORGANIZATION_ROLE ( 'creator' ) ;
#174 = CARTESIAN_POINT ( 'NONE',  ( 0.9999999999999940000, 4.684274006738625700E-015, -38.25000000000000000 ) ) ;
#175 = CARTESIAN_POINT ( 'NONE',  ( -1.000000000000007800, 0.0000000000000000000, 38.25000000000000000 ) ) ;
#176 = CARTESIAN_POINT ( 'NONE',  ( 0.9999999999999940000, 0.0000000000000000000, 0.0000000000000000000 ) ) ;
#177 = CARTESIAN_POINT ( 'NONE',  ( 0.9999999999999940000, 0.0000000000000000000, 0.0000000000000000000 ) ) ;
#178 = DIRECTION ( 'NONE',  ( -1.000000000000000000, -0.0000000000000000000, -0.0000000000000000000 ) ) ;
#179 = DIRECTION ( 'NONE',  ( 0.0000000000000000000, 0.0000000000000000000, 1.000000000000000000 ) ) ;
#180 =( LENGTH_UNIT ( ) NAMED_UNIT ( * ) SI_UNIT ( .MILLI., .METRE. ) );
#181 =( NAMED_UNIT ( * ) PLANE_ANGLE_UNIT ( ) SI_UNIT ( $, .RADIAN. ) );
#182 =( NAMED_UNIT ( * ) SI_UNIT ( $, .STERADIAN. ) SOLID_ANGLE_UNIT ( ) );
#183 = APPLICATION_PROTOCOL_DEFINITION ( 'international standard', 'config_control_design', 1994, #184 ) ;
#184 = APPLICATION_CONTEXT ( 'configuration controlled 3d designs of mechanical parts and assemblies' ) ;
#185 = DIRECTION ( 'NONE',  ( 1.000000000000000000, 0.0000000000000000000, 0.0000000000000000000 ) ) ;
#186 = MECHANICAL_CONTEXT ( 'NONE', #184, 'mechanical' ) ;
#187 = PERSON_AND_ORGANIZATION_ROLE ( 'design_owner' ) ;
#188 = APPLICATION_CONTEXT ( 'configuration controlled 3d designs of mechanical parts and assemblies' ) ;
#189 = APPLICATION_PROTOCOL_DEFINITION ( 'international standard', 'config_control_design', 1994, #188 ) ;
#190 = APPROVAL_STATUS ( 'not_yet_approved' ) ;
#191 = APPROVAL_ROLE ( '' ) ;
#192 = PERSON_AND_ORGANIZATION_ROLE ( 'creator' ) ;
#193 = DATE_TIME_ROLE ( 'creation_date' ) ;
#194 = DIRECTION ( 'NONE',  ( 0.0000000000000000000, 0.0000000000000000000, 1.000000000000000000 ) ) ;
#195 = DIRECTION ( 'NONE',  ( -1.000000000000000000, -0.0000000000000000000, -0.0000000000000000000 ) ) ;
#196 = ADVANCED_FACE ( 'NONE', ( #54 ), #49, .F. ) ;
#197 = ADVANCED_FACE ( 'NONE', ( #52, #48 ), #160, .F. ) ;
#198 = ADVANCED_FACE ( 'NONE', ( #53 ), #56, .T. ) ;
#199 = ADVANCED_FACE ( 'NONE', ( #11 ), #58, .T. ) ;
#200 = ADVANCED_FACE ( 'NONE', ( #50, #59 ), #126, .F. ) ;
#201 = ADVANCED_FACE ( 'NONE', ( #51 ), #62, .F. ) ;
#202 = EDGE_CURVE ( 'NONE', #7, #8, #57, .T. ) ;
#203 = EDGE_CURVE ( 'NONE', #14, #13, #60, .T. ) ;
#204 = EDGE_CURVE ( 'NONE', #13, #9, #61, .T. ) ;
#205 = EDGE_CURVE ( 'NONE', #12, #9, #65, .T. ) ;
#206 = EDGE_CURVE ( 'NONE', #14, #12, #63, .T. ) ;
#207 = EDGE_CURVE ( 'NONE', #6, #8, #66, .T. ) ;
#208 = EDGE_CURVE ( 'NONE', #15, #6, #68, .T. ) ;
#209 = EDGE_CURVE ( 'NONE', #7, #15, #69, .T. ) ;
#210 = EDGE_CURVE ( 'NONE', #8, #6, #71, .T. ) ;
#211 = EDGE_CURVE ( 'NONE', #9, #13, #72, .T. ) ;
#212 = EDGE_CURVE ( 'NONE', #12, #14, #73, .T. ) ;
#213 = EDGE_CURVE ( 'NONE', #15, #7, #74, .T. ) ;
#214 = AXIS2_PLACEMENT_3D ( 'NONE', #121, #122, #120 ) ;
#215 = AXIS2_PLACEMENT_3D ( 'NONE', #119, #118, #111 ) ;
#216 = AXIS2_PLACEMENT_3D ( 'NONE', #162, #158, #159 ) ;
#217 = AXIS2_PLACEMENT_3D ( 'NONE', #142, #141, #161 ) ;
#218 = AXIS2_PLACEMENT_3D ( 'NONE', #140, #138, #123 ) ;
#219 = AXIS2_PLACEMENT_3D ( 'NONE', #139, #128, #129 ) ;
#220 = AXIS2_PLACEMENT_3D ( 'NONE', #130, #131, #132 ) ;
#221 = AXIS2_PLACEMENT_3D ( 'NONE', #164, #163, #127 ) ;
#222 = AXIS2_PLACEMENT_3D ( 'NONE', #151, #152, #156 ) ;
#223 = AXIS2_PLACEMENT_3D ( 'NONE', #153, #154, #155 ) ;
#224 = AXIS2_PLACEMENT_3D ( 'NONE', #157, #143, #144 ) ;
#225 = AXIS2_PLACEMENT_3D ( 'NONE', #145, #146, #147 ) ;
#226 = AXIS2_PLACEMENT_3D ( 'NONE', #177, #195, #194 ) ;
#227 = AXIS2_PLACEMENT_3D ( 'NONE', #176, #178, #179 ) ;
#228 =( GEOMETRIC_REPRESENTATION_CONTEXT ( 3 ) GLOBAL_UNCERTAINTY_ASSIGNED_CONTEXT ( ( #3 ) ) GLOBAL_UNIT_ASSIGNED_CONTEXT ( ( #180, #181, #182 ) ) REPRESENTATION_CONTEXT ( 'NONE', 'WORKASPACE' ) );
#229 = AXIS2_PLACEMENT_3D ( 'NONE', #148, #149, #185 ) ;
#230 = CC_DESIGN_PERSON_AND_ORGANIZATION_ASSIGNMENT ( #77, #187, ( #248 ) ) ;
#231 = PRODUCT_DEFINITION ( 'UNKNOWN', '', #236, #1 ) ;
#232 = APPROVAL ( #190, 'UNSPECIFIED' ) ;
#233 = CC_DESIGN_APPROVAL ( #232, ( #231 ) ) ;
#234 = CC_DESIGN_PERSON_AND_ORGANIZATION_ASSIGNMENT ( #85, #192, ( #231 ) ) ;
#235 = CC_DESIGN_DATE_AND_TIME_ASSIGNMENT ( #89, #193, ( #231 ) ) ;
#236 = PRODUCT_DEFINITION_FORMATION_WITH_SPECIFIED_SOURCE ( 'ANY', '', #248, .NOT_KNOWN. ) ;
#237 = APPROVAL ( #171, 'UNSPECIFIED' ) ;
#238 = CC_DESIGN_APPROVAL ( #237, ( #236 ) ) ;
#239 = CC_DESIGN_PERSON_AND_ORGANIZATION_ASSIGNMENT ( #97, #173, ( #236 ) ) ;
#240 = CC_DESIGN_PERSON_AND_ORGANIZATION_ASSIGNMENT ( #98, #168, ( #236 ) ) ;
#241 = SECURITY_CLASSIFICATION ( '', '', #169 ) ;
#242 = CC_DESIGN_PERSON_AND_ORGANIZATION_ASSIGNMENT ( #99, #170, ( #241 ) ) ;
#243 = CC_DESIGN_DATE_AND_TIME_ASSIGNMENT ( #103, #165, ( #241 ) ) ;
#244 = APPROVAL ( #166, 'UNSPECIFIED' ) ;
#245 = CC_DESIGN_APPROVAL ( #244, ( #241 ) ) ;
#246 = CC_DESIGN_SECURITY_CLASSIFICATION ( #241, ( #236 ) ) ;
#247 = PRODUCT_RELATED_PRODUCT_CATEGORY ( 'detail', '', ( #248 ) ) ;
#248 = PRODUCT ( 'Entry thread seal - Metric and NPT.63 Metric and 2 NPT', 'Entry thread seal - Metric and NPT.63 Metric and 2 NPT', '', ( #186 ) ) ;
#249 = PERSON ( 'UNSPECIFIED', 'UNSPECIFIED', 'UNSPECIFIED', ('UNSPECIFIED'), ('UNSPECIFIED'), ('UNSPECIFIED') ) ;
ENDSEC;
END-ISO-10303-21;
